  0
SECTION
  2
HEADER
  9
$ACADVER
  1
AC1015
  9
$ACADMAINTVER
 70
     6
  9
$DWGCODEPAGE
  3
ANSI_1254
  9
$INSBASE
 10
0.0
 20
0.0
 30
0.0
  9
$EXTMIN
 10
0.0
 20
0.0
 30
0.0
  9
$EXTMAX
 10
279.4
 20
215.9
 30
0.0
  9
$LIMMIN
 10
0.0
 20
0.0
  9
$LIMMAX
 10
279.4
 20
215.9
  9
$ORTHOMODE
 70
     0
  9
$REGENMODE
 70
     1
  9
$FILLMODE
 70
     1
  9
$QTEXTMODE
 70
     0
  9
$MIRRTEXT
 70
     1
  9
$LTSCALE
 40
1.0
  9
$ATTMODE
 70
     1
  9
$TEXTSIZE
 40
3.5
  9
$TRACEWID
 40
1.0
  9
$TEXTSTYLE
  7
Standard
  9
$CLAYER
  8
0
  9
$CELTYPE
  6
ByLayer
  9
$CECOLOR
 62
   256
  9
$CELTSCALE
 40
1.0
  9
$DISPSILH
 70
     0
  9
$DIMSCALE
 40
1.0
  9
$DIMASZ
 40
3.5
  9
$DIMEXO
 40
1.0
  9
$DIMDLI
 40
3.75
  9
$DIMRND
 40
0.0
  9
$DIMDLE
 40
0.0
  9
$DIMEXE
 40
1.0
  9
$DIMTP
 40
0.0
  9
$DIMTM
 40
0.0
  9
$DIMTXT
 40
3.5
  9
$DIMCEN
 40
2.5
  9
$DIMTSZ
 40
0.0
  9
$DIMTOL
 70
     0
  9
$DIMLIM
 70
     0
  9
$DIMTIH
 70
     1
  9
$DIMTOH
 70
     1
  9
$DIMSE1
 70
     0
  9
$DIMSE2
 70
     0
  9
$DIMTAD
 70
     1
  9
$DIMZIN
 70
     0
  9
$DIMBLK
  1

  9
$DIMASO
 70
     1
  9
$DIMSHO
 70
     1
  9
$DIMPOST
  1

  9
$DIMAPOST
  1

  9
$DIMALT
 70
     0
  9
$DIMALTD
 70
     3
  9
$DIMALTF
 40
0.0393700787
  9
$DIMLFAC
 40
1.0
  9
$DIMTOFL
 70
     1
  9
$DIMTVP
 40
0.0
  9
$DIMTIX
 70
     0
  9
$DIMSOXD
 70
     0
  9
$DIMSAH
 70
     0
  9
$DIMBLK1
  1

  9
$DIMBLK2
  1

  9
$DIMSTYLE
  2
ISO-25
  9
$DIMCLRD
 70
     0
  9
$DIMCLRE
 70
     0
  9
$DIMCLRT
 70
     0
  9
$DIMTFAC
 40
1.0
  9
$DIMGAP
 40
1.524
  9
$DIMJUST
 70
     0
  9
$DIMSD1
 70
     0
  9
$DIMSD2
 70
     0
  9
$DIMTOLJ
 70
     0
  9
$DIMTZIN
 70
     0
  9
$DIMALTZ
 70
     0
  9
$DIMALTTZ
 70
     0
  9
$DIMUPT
 70
     0
  9
$DIMDEC
 70
     2
  9
$DIMTDEC
 70
     2
  9
$DIMALTU
 70
     2
  9
$DIMALTTD
 70
     3
  9
$DIMTXSTY
  7
Standard
  9
$DIMAUNIT
 70
     0
  9
$DIMADEC
 70
     2
  9
$DIMALTRND
 40
0.0
  9
$DIMAZIN
 70
     0
  9
$DIMDSEP
 70
    44
  9
$DIMATFIT
 70
     3
  9
$DIMFRAC
 70
     0
  9
$DIMLDRBLK
  1

  9
$DIMLUNIT
 70
     2
  9
$DIMLWD
 70
    -2
  9
$DIMLWE
 70
    -2
  9
$DIMTMOVE
 70
     0
  9
$LUNITS
 70
     2
  9
$LUPREC
 70
     2
  9
$SKETCHINC
 40
1.0
  9
$FILLETRAD
 40
10.0
  9
$AUNITS
 70
     0
  9
$AUPREC
 70
     2
  9
$MENU
  1
.
  9
$ELEVATION
 40
0.0
  9
$PELEVATION
 40
0.0
  9
$THICKNESS
 40
0.0
  9
$LIMCHECK
 70
     0
  9
$CHAMFERA
 40
0.0
  9
$CHAMFERB
 40
0.0
  9
$CHAMFERC
 40
0.0
  9
$CHAMFERD
 40
0.0
  9
$SKPOLY
 70
     0
  9
$TDCREATE
 40
2459921.519989653
  9
$TDUCREATE
 40
2459921.394989653
  9
$TDUPDATE
 40
2459921.519989838
  9
$TDUUPDATE
 40
2459921.394989838
  9
$TDINDWG
 40
0.0000000116
  9
$TDUSRTIMER
 40
0.0000000116
  9
$USRTIMER
 70
     1
  9
$ANGBASE
 50
0.0
  9
$ANGDIR
 70
     0
  9
$PDMODE
 70
     0
  9
$PDSIZE
 40
-1.0
  9
$PLINEWID
 40
0.0
  9
$SPLFRAME
 70
     0
  9
$SPLINETYPE
 70
     6
  9
$SPLINESEGS
 70
     8
  9
$HANDSEED
  5
CC
  9
$SURFTAB1
 70
     6
  9
$SURFTAB2
 70
     6
  9
$SURFTYPE
 70
     6
  9
$SURFU
 70
     6
  9
$SURFV
 70
     6
  9
$UCSBASE
  2

  9
$UCSNAME
  2

  9
$UCSORG
 10
0.0
 20
0.0
 30
0.0
  9
$UCSXDIR
 10
1.0
 20
0.0
 30
0.0
  9
$UCSYDIR
 10
0.0
 20
1.0
 30
0.0
  9
$UCSORTHOREF
  2

  9
$UCSORTHOVIEW
 70
     0
  9
$UCSORGTOP
 10
0.0
 20
0.0
 30
0.0
  9
$UCSORGBOTTOM
 10
0.0
 20
0.0
 30
0.0
  9
$UCSORGLEFT
 10
0.0
 20
0.0
 30
0.0
  9
$UCSORGRIGHT
 10
0.0
 20
0.0
 30
0.0
  9
$UCSORGFRONT
 10
0.0
 20
0.0
 30
0.0
  9
$UCSORGBACK
 10
0.0
 20
0.0
 30
0.0
  9
$PUCSBASE
  2

  9
$PUCSNAME
  2

  9
$PUCSORG
 10
0.0
 20
0.0
 30
0.0
  9
$PUCSXDIR
 10
1.0
 20
0.0
 30
0.0
  9
$PUCSYDIR
 10
0.0
 20
1.0
 30
0.0
  9
$PUCSORTHOREF
  2

  9
$PUCSORTHOVIEW
 70
     0
  9
$PUCSORGTOP
 10
0.0
 20
0.0
 30
0.0
  9
$PUCSORGBOTTOM
 10
0.0
 20
0.0
 30
0.0
  9
$PUCSORGLEFT
 10
0.0
 20
0.0
 30
0.0
  9
$PUCSORGRIGHT
 10
0.0
 20
0.0
 30
0.0
  9
$PUCSORGFRONT
 10
0.0
 20
0.0
 30
0.0
  9
$PUCSORGBACK
 10
0.0
 20
0.0
 30
0.0
  9
$USERI1
 70
     0
  9
$USERI2
 70
     0
  9
$USERI3
 70
     0
  9
$USERI4
 70
     0
  9
$USERI5
 70
     0
  9
$USERR1
 40
0.0
  9
$USERR2
 40
0.0
  9
$USERR3
 40
0.0
  9
$USERR4
 40
0.0
  9
$USERR5
 40
0.0
  9
$WORLDVIEW
 70
     1
  9
$SHADEDGE
 70
     3
  9
$SHADEDIF
 70
    70
  9
$TILEMODE
 70
     1
  9
$MAXACTVP
 70
    64
  9
$PINSBASE
 10
0.0
 20
0.0
 30
0.0
  9
$PLIMCHECK
 70
     0
  9
$PEXTMIN
 10
1.0000000000E+20
 20
1.0000000000E+20
 30
1.0000000000E+20
  9
$PEXTMAX
 10
-1.0000000000E+20
 20
-1.0000000000E+20
 30
-1.0000000000E+20
  9
$PLIMMIN
 10
0.0
 20
0.0
  9
$PLIMMAX
 10
420.0
 20
297.0
  9
$UNITMODE
 70
     0
  9
$VISRETAIN
 70
     1
  9
$PLINEGEN
 70
     0
  9
$PSLTSCALE
 70
     1
  9
$TREEDEPTH
 70
  3020
  9
$CMLSTYLE
  2
Standard
  9
$CMLJUST
 70
     0
  9
$CMLSCALE
 40
20.0
  9
$PROXYGRAPHICS
 70
     1
  9
$MEASUREMENT
 70
     1
  9
$CELWEIGHT
370
    -1
  9
$ENDCAPS
280
     0
  9
$JOINSTYLE
280
     0
  9
$LWDISPLAY
290
     1
  9
$INSUNITS
 70
     4
  9
$HYPERLINKBASE
  1

  9
$STYLESHEET
  1

  9
$XEDIT
290
     1
  9
$CEPSNTYPE
380
     0
  9
$PSTYLEMODE
290
     1
  9
$FINGERPRINTGUID
  2
{a99afdae-5c1f-4eca-a295-b228abe10a88}
  9
$VERSIONGUID
  2
{FAEB1C32-E019-11D5-929B-00C0DF256EC4}
  9
$EXTNAMES
290
     1
  9
$PSVPSCALE
 40
0.0
  9
$OLESTARTUP
290
     0
  0
ENDSEC
  0
SECTION
  2
CLASSES
  0
CLASS
  1
ACDBDICTIONARYWDFLT
  2
AcDbDictionaryWithDefault
  3
ObjectDBX Classes
 90
        0
280
     0
281
     0
  0
CLASS
  1
VISUALSTYLE
  2
AcDbVisualStyle
  3
ObjectDBX Classes
 90
     4095
280
     0
281
     0
  0
CLASS
  1
MATERIAL
  2
AcDbMaterial
  3
ObjectDBX Classes
 90
     1153
280
     0
281
     0
  0
CLASS
  1
SCALE
  2
AcDbScale
  3
ObjectDBX Classes
 90
     1153
280
     0
281
     0
  0
CLASS
  1
TABLESTYLE
  2
AcDbTableStyle
  3
ObjectDBX Classes
 90
     4095
280
     0
281
     0
  0
CLASS
  1
MLEADERSTYLE
  2
AcDbMLeaderStyle
  3
ACDB_MLEADERSTYLE_CLASS
 90
     4095
280
     0
281
     0
  0
CLASS
  1
SUN
  2
AcDbSun
  3
SCENEOE
 90
     1153
280
     0
281
     0
  0
CLASS
  1
ACDBPLACEHOLDER
  2
AcDbPlaceHolder
  3
ObjectDBX Classes
 90
        0
280
     0
281
     0
  0
CLASS
  1
LAYOUT
  2
AcDbLayout
  3
ObjectDBX Classes
 90
        0
280
     0
281
     0
  0
ENDSEC
  0
SECTION
  2
TABLES
  0
TABLE
  2
VPORT
  5
8
330
0
100
AcDbSymbolTable
 70
     1
  0
VPORT
  5
29
330
8
100
AcDbSymbolTableRecord
100
AcDbViewportTableRecord
  2
*Active
 70
     0
 10
0.0
 20
0.0
 11
1.0
 21
1.0
 12
139.7
 22
107.95
 13
0.0
 23
0.0
 14
10.0
 24
10.0
 15
10.0
 25
10.0
 16
0.0
 26
0.0
 36
1.0
 17
0.0
 27
0.0
 37
0.0
 40
215.9
 41
1.2941176471
 42
50.0
 43
0.0
 44
0.0
 50
0.0
 51
0.0
 71
     0
 72
  2000
 73
     1
 74
     3
 75
     0
 76
     0
 77
     0
 78
     0
281
     0
 65
     1
110
0.0
120
0.0
130
0.0
111
1.0
121
0.0
131
0.0
112
0.0
122
1.0
132
0.0
 79
     0
146
0.0
  0
ENDTAB
  0
TABLE
  2
LTYPE
  5
5
330
0
100
AcDbSymbolTable
 70
     6
  0
LTYPE
  5
14
330
5
100
AcDbSymbolTableRecord
100
AcDbLinetypeTableRecord
  2
ByBlock
 70
     0
  3

 72
    65
 73
     0
 40
0.0
  0
LTYPE
  5
15
330
5
100
AcDbSymbolTableRecord
100
AcDbLinetypeTableRecord
  2
ByLayer
 70
     0
  3

 72
    65
 73
     0
 40
0.0
  0
LTYPE
  5
16
330
5
100
AcDbSymbolTableRecord
100
AcDbLinetypeTableRecord
  2
Continuous
 70
     0
  3
Solid line
 72
    65
 73
     0
 40
0.0
  0
LTYPE
  5
6E
330
5
100
AcDbSymbolTableRecord
100
AcDbLinetypeTableRecord
  2
HIDDEN
 70
     0
  3
Hidden __ __ __ __ __ __ __ __ __ __ __ __ __ __
 72
    65
 73
     2
 40
1.905
 49
1.27
 74
     0
 49
-0.635
 74
     0
  0
LTYPE
  5
6F
330
5
100
AcDbSymbolTableRecord
100
AcDbLinetypeTableRecord
  2
PHANTOM
 70
     0
  3
Phantom ______  __  __  ______  __  __  ______
 72
    65
 73
     6
 40
12.7
 49
6.35
 74
     0
 49
-1.27
 74
     0
 49
1.27
 74
     0
 49
-1.27
 74
     0
 49
1.27
 74
     0
 49
-1.27
 74
     0
  0
LTYPE
  5
70
330
5
100
AcDbSymbolTableRecord
100
AcDbLinetypeTableRecord
  2
CENTER
 70
     0
  3
Center ____ _ ____ _ ____ _ ____ _ ____ _ ____
 72
    65
 73
     4
 40
10.16
 49
6.35
 74
     0
 49
-1.27
 74
     0
 49
1.27
 74
     0
 49
-1.27
 74
     0
  0
LTYPE
  5
71
330
5
100
AcDbSymbolTableRecord
100
AcDbLinetypeTableRecord
  2
CENTERX2
 70
     0
  3
Center (2x) ________  __  ________  __  _____
 72
    65
 73
     4
 40
20.32
 49
12.7
 74
     0
 49
-2.54
 74
     0
 49
2.54
 74
     0
 49
-2.54
 74
     0
  0
LTYPE
  5
72
330
5
100
AcDbSymbolTableRecord
100
AcDbLinetypeTableRecord
  2
DOT2
 70
     0
  3
Dot (.5x) ........................................
 72
    65
 73
     2
 40
0.635
 49
0.0
 74
     0
 49
-0.635
 74
     0
  0
ENDTAB
  0
TABLE
  2
LAYER
  5
2
330
0
100
AcDbSymbolTable
 70
    17
  0
LAYER
  5
10
330
2
100
AcDbSymbolTableRecord
100
AcDbLayerTableRecord
  2
0
 70
     0
 62
     7
  6
Continuous
370
    -3
390
F
  0
LAYER
  5
73
330
2
100
AcDbSymbolTableRecord
100
AcDbLayerTableRecord
  2
FORMAT
 70
     0
 62
     7
  6
Continuous
370
    -3
390
F
  0
LAYER
  5
74
330
2
100
AcDbSymbolTableRecord
100
AcDbLayerTableRecord
  2
YARDIMCI_GEOMETRI
 70
     0
 62
    -6
  6
Continuous
290
     0
370
    -3
390
F
  0
LAYER
  5
75
330
2
100
AcDbSymbolTableRecord
100
AcDbLayerTableRecord
  2
SAYFA_CERCEVESI
 70
     0
 62
     7
  6
Continuous
370
    25
390
F
  0
LAYER
  5
76
330
2
100
AcDbSymbolTableRecord
100
AcDbLayerTableRecord
  2
ANTET
 70
     0
 62
     7
  6
Continuous
370
    -3
390
F
  0
LAYER
  5
77
330
2
100
AcDbSymbolTableRecord
100
AcDbLayerTableRecord
  2
OLCU
 70
     0
 62
   150
  6
Continuous
370
    -3
390
F
  0
LAYER
  5
78
330
2
100
AcDbSymbolTableRecord
100
AcDbLayerTableRecord
  2
METIN
 70
     0
 62
    96
  6
Continuous
370
    -3
390
F
  0
LAYER
  5
79
330
2
100
AcDbSymbolTableRecord
100
AcDbLayerTableRecord
  2
BALON
 70
     0
 62
     5
  6
Continuous
370
    -3
390
F
  0
LAYER
  5
7A
330
2
100
AcDbSymbolTableRecord
100
AcDbLayerTableRecord
  2
VURGU
 70
     0
 62
     7
  6
Continuous
370
    -3
390
F
  0
LAYER
  5
7B
330
2
100
AcDbSymbolTableRecord
100
AcDbLayerTableRecord
  2
SILIK
 70
     0
 62
     7
  6
Continuous
370
    -3
390
F
  0
LAYER
  5
7C
330
2
100
AcDbSymbolTableRecord
100
AcDbLayerTableRecord
  2
MODEL
 70
     0
 62
     7
  6
Continuous
370
    -3
390
F
  0
LAYER
  5
7D
330
2
100
AcDbSymbolTableRecord
100
AcDbLayerTableRecord
  2
DETAYLANDıRMA
 70
     0
 62
   190
  6
Continuous
370
    -3
390
F
  0
LAYER
  5
7E
330
2
100
AcDbSymbolTableRecord
100
AcDbLayerTableRecord
  2
TOLERANS
 70
     0
 62
   230
  6
Continuous
370
    -3
390
F
  0
LAYER
  5
7F
330
2
100
AcDbSymbolTableRecord
100
AcDbLayerTableRecord
  2
MERKEZ_CIZGILERI
 70
     0
 62
    30
  6
Continuous
370
    -3
390
F
  0
LAYER
  5
80
330
2
100
AcDbSymbolTableRecord
100
AcDbLayerTableRecord
  2
KESIT-DETAY_CIZGILERI
 70
     0
 62
     7
  6
Continuous
370
    -3
390
F
  0
LAYER
  5
81
330
2
100
AcDbSymbolTableRecord
100
AcDbLayerTableRecord
  2
\U+041E\U+0421\U+0415\U+0412\U+042B\U+0415
 70
     0
 62
     7
  6
Continuous
370
    -3
390
F
  0
LAYER
  5
82
330
2
100
AcDbSymbolTableRecord
100
AcDbLayerTableRecord
  2
\U+0412\U+041E\U+0414\U+042F\U+041D\U+042B\U+0415_\U+0417\U+041D\U+0410\U+041A\U+0418
 70
     0
 62
    11
  6
Continuous
370
    -3
390
F
  0
ENDTAB
  0
TABLE
  2
STYLE
  5
3
330
0
100
AcDbSymbolTable
 70
     1
  0
STYLE
  5
11
330
3
100
AcDbSymbolTableRecord
100
AcDbTextStyleTableRecord
  2
Standard
 70
     0
 40
0.0
 41
1.0
 50
0.0
 71
     0
 42
3.5
  3
txt
  4

  0
ENDTAB
  0
TABLE
  2
VIEW
  5
6
330
0
100
AcDbSymbolTable
 70
     0
  0
ENDTAB
  0
TABLE
  2
UCS
  5
7
330
0
100
AcDbSymbolTable
 70
     0
  0
ENDTAB
  0
TABLE
  2
APPID
  5
9
330
0
100
AcDbSymbolTable
 70
     1
  0
APPID
  5
12
330
9
100
AcDbSymbolTableRecord
100
AcDbRegAppTableRecord
  2
ACAD
 70
     0
  0
ENDTAB
  0
TABLE
  2
DIMSTYLE
  5
A
330
0
100
AcDbSymbolTable
 70
     1
100
AcDbDimStyleTable
  0
DIMSTYLE
105
27
330
A
100
AcDbSymbolTableRecord
100
AcDbDimStyleTableRecord
  2
ISO-25
 70
     0
 41
2.5
 42
0.625
 43
3.75
 44
1.25
 73
     0
 74
     0
 77
     1
 78
     8
140
2.5
141
2.5
143
0.0393700787
147
0.625
171
     3
172
     1
178
     0
271
     2
272
     2
274
     3
278
    44
283
     0
284
     8
340
11
  0
ENDTAB
  0
TABLE
  2
BLOCK_RECORD
  5
1
330
0
100
AcDbSymbolTable
 70
     3
  0
BLOCK_RECORD
  5
1F
330
1
100
AcDbSymbolTableRecord
100
AcDbBlockTableRecord
  2
*Model_Space
340
22
  0
BLOCK_RECORD
  5
1B
330
1
100
AcDbSymbolTableRecord
100
AcDbBlockTableRecord
  2
*Paper_Space
340
1E
  0
BLOCK_RECORD
  5
23
330
1
100
AcDbSymbolTableRecord
100
AcDbBlockTableRecord
  2
*Paper_Space0
340
26
  0
BLOCK_RECORD
  5
88
330
1
100
AcDbSymbolTableRecord
100
AcDbBlockTableRecord
  2
SW_CENTERMARKSYMBOL_0
340
0
102
{BLKREFS
331
93
102
}
  0
BLOCK_RECORD
  5
B2
330
1
100
AcDbSymbolTableRecord
100
AcDbBlockTableRecord
  2
SW_CENTERMARKSYMBOL_1
340
0
102
{BLKREFS
331
BD
102
}
  0
ENDTAB
  0
ENDSEC
  0
SECTION
  2
BLOCKS
  0
BLOCK
  5
20
330
1F
100
AcDbEntity
  8
0
100
AcDbBlockBegin
  2
*Model_Space
 70
     0
 10
0.0
 20
0.0
 30
0.0
  3
*Model_Space
  1

  0
ENDBLK
  5
21
330
1F
100
AcDbEntity
  8
0
100
AcDbBlockEnd
  0
BLOCK
  5
1C
330
1B
100
AcDbEntity
 67
     1
  8
0
100
AcDbBlockBegin
  2
*Paper_Space
 70
     0
 10
0.0
 20
0.0
 30
0.0
  3
*Paper_Space
  1

  0
ENDBLK
  5
1D
330
1B
100
AcDbEntity
 67
     1
  8
0
100
AcDbBlockEnd
  0
BLOCK
  5
24
330
23
100
AcDbEntity
  8
0
100
AcDbBlockBegin
  2
*Paper_Space0
 70
     0
 10
0.0
 20
0.0
 30
0.0
  3
*Paper_Space0
  1

  0
ENDBLK
  5
25
330
23
100
AcDbEntity
  8
0
100
AcDbBlockEnd
  0
BLOCK
  5
89
330
88
100
AcDbEntity
  8
0
100
AcDbBlockBegin
  2
SW_CENTERMARKSYMBOL_0
 70
     0
 10
0.0
 20
0.0
 30
0.0
  3
SW_CENTERMARKSYMBOL_0
  1

  0
LINE
  5
8B
330
88
100
AcDbEntity
  8
FORMAT
 62
     0
100
AcDbLine
 10
0.0
 20
0.0
 30
0.0
 11
0.0
 21
2.5
 31
0.0
  0
LINE
  5
8C
330
88
100
AcDbEntity
  8
FORMAT
 62
     0
100
AcDbLine
 10
0.0
 20
0.0
 30
0.0
 11
-2.5
 21
0.0
 31
0.0
  0
LINE
  5
8D
330
88
100
AcDbEntity
  8
FORMAT
 62
     0
100
AcDbLine
 10
0.0
 20
0.0
 30
0.0
 11
0.0
 21
-2.5
 31
0.0
  0
LINE
  5
8E
330
88
100
AcDbEntity
  8
FORMAT
 62
     0
100
AcDbLine
 10
0.0
 20
0.0
 30
0.0
 11
2.5
 21
0.0
 31
0.0
  0
LINE
  5
8F
330
88
100
AcDbEntity
  8
FORMAT
 62
     0
100
AcDbLine
 10
0.0
 20
5.0
 30
0.0
 11
0.0
 21
202.5
 31
0.0
  0
LINE
  5
90
330
88
100
AcDbEntity
  8
FORMAT
 62
     0
100
AcDbLine
 10
-5.0
 20
0.0
 30
0.0
 11
-202.5
 21
0.0
 31
0.0
  0
LINE
  5
91
330
88
100
AcDbEntity
  8
FORMAT
 62
     0
100
AcDbLine
 10
0.0
 20
-5.0
 30
0.0
 11
0.0
 21
-202.5
 31
0.0
  0
LINE
  5
92
330
88
100
AcDbEntity
  8
FORMAT
 62
     0
100
AcDbLine
 10
5.0
 20
0.0
 30
0.0
 11
202.5
 21
0.0
 31
0.0
  0
ENDBLK
  5
8A
330
88
100
AcDbEntity
  8
0
100
AcDbBlockEnd
  0
BLOCK
  5
B3
330
B2
100
AcDbEntity
  8
0
100
AcDbBlockBegin
  2
SW_CENTERMARKSYMBOL_1
 70
     0
 10
0.0
 20
0.0
 30
0.0
  3
SW_CENTERMARKSYMBOL_1
  1

  0
LINE
  5
B5
330
B2
100
AcDbEntity
  8
FORMAT
 62
     0
100
AcDbLine
 10
0.0
 20
0.0
 30
0.0
 11
0.0
 21
2.5
 31
0.0
  0
LINE
  5
B6
330
B2
100
AcDbEntity
  8
FORMAT
 62
     0
100
AcDbLine
 10
0.0
 20
0.0
 30
0.0
 11
-2.5
 21
0.0
 31
0.0
  0
LINE
  5
B7
330
B2
100
AcDbEntity
  8
FORMAT
 62
     0
100
AcDbLine
 10
0.0
 20
0.0
 30
0.0
 11
0.0
 21
-2.5
 31
0.0
  0
LINE
  5
B8
330
B2
100
AcDbEntity
  8
FORMAT
 62
     0
100
AcDbLine
 10
0.0
 20
0.0
 30
0.0
 11
2.5
 21
0.0
 31
0.0
  0
LINE
  5
B9
330
B2
100
AcDbEntity
  8
FORMAT
 62
     0
100
AcDbLine
 10
0.0
 20
5.0
 30
0.0
 11
0.0
 21
57.5
 31
0.0
  0
LINE
  5
BA
330
B2
100
AcDbEntity
  8
FORMAT
 62
     0
100
AcDbLine
 10
-5.0
 20
0.0
 30
0.0
 11
-57.5
 21
0.0
 31
0.0
  0
LINE
  5
BB
330
B2
100
AcDbEntity
  8
FORMAT
 62
     0
100
AcDbLine
 10
0.0
 20
-5.0
 30
0.0
 11
0.0
 21
-57.5
 31
0.0
  0
LINE
  5
BC
330
B2
100
AcDbEntity
  8
FORMAT
 62
     0
100
AcDbLine
 10
5.0
 20
0.0
 30
0.0
 11
57.5
 21
0.0
 31
0.0
  0
ENDBLK
  5
B4
330
B2
100
AcDbEntity
  8
0
100
AcDbBlockEnd
  0
ENDSEC
  0
SECTION
  2
ENTITIES
  0
LINE
  5
83
330
1F
100
AcDbEntity
  8
0
  6
Continuous
 62
     7
370
    25
100
AcDbLine
 10
84.2439406679
 20
47.4827238164
 30
0.0
 11
218.9477587346
 21
47.4827238164
 31
0.0
  0
LINE
  5
84
330
1F
100
AcDbEntity
  8
0
  6
Continuous
 62
     7
370
    25
100
AcDbLine
 10
218.9477587346
 20
157.4827238164
 30
0.0
 11
84.2566828891
 21
157.4827238164
 31
0.0
  0
CIRCLE
  5
85
330
1F
100
AcDbEntity
  8
0
  6
Continuous
 62
     7
370
    25
100
AcDbCircle
 10
-108.0522412654
 20
102.4827238164
 30
0.0
 40
163.7
  0
CIRCLE
  5
86
330
1F
100
AcDbEntity
  8
0
  6
Continuous
 62
     7
370
    25
100
AcDbCircle
 10
-108.0522412654
 20
102.4827238164
 30
0.0
 40
200.0
  0
LINE
  5
87
330
1F
100
AcDbEntity
  8
0
  6
Continuous
 62
     7
370
    25
100
AcDbLine
 10
218.9477587346
 20
157.4827238164
 30
0.0
 11
218.9477587346
 21
47.4827238164
 31
0.0
  0
INSERT
  5
93
330
1F
100
AcDbEntity
  8
FORMAT
100
AcDbBlockReference
  2
SW_CENTERMARKSYMBOL_0
 10
-108.0522412654
 20
102.4827238164
 30
0.0
  0
LINE
  5
94
330
1F
100
AcDbEntity
  8
0
  6
Continuous
 62
     7
370
    25
100
AcDbLine
 10
-308.0522412654
 20
-499.1377875545
 30
0.0
 11
-308.0522412654
 21
-1114.1377875545
 31
0.0
  0
LINE
  5
95
330
1F
100
AcDbEntity
  8
0
  6
Continuous
 62
     7
370
    25
100
AcDbLine
 10
91.9477587346
 20
-751.6745465206
 30
0.0
 11
91.9477587346
 21
-499.1377875545
 31
0.0
  0
LINE
  5
96
330
1F
100
AcDbEntity
  8
0
  6
Continuous
 62
     7
370
    25
100
AcDbLine
 10
91.9477587346
 20
-1114.1377875545
 30
0.0
 11
91.9477587346
 21
-861.6377875545
 31
0.0
  0
LINE
  5
97
330
1F
100
AcDbEntity
  8
0
  6
Continuous
 62
     7
370
    25
100
AcDbLine
 10
91.9477587346
 20
-861.6377875545
 30
0.0
 11
218.9477587346
 21
-861.6377875545
 31
0.0
  0
LINE
  5
98
330
1F
100
AcDbEntity
  8
0
  6
Continuous
 62
     7
370
    25
100
AcDbLine
 10
218.9477587346
 20
-751.6377875545
 30
0.0
 11
91.9376599518
 21
-751.6377875545
 31
0.0
  0
SPLINE
  5
99
330
1F
100
AcDbEntity
  8
0
  6
Continuous
 62
     7
370
    25
100
AcDbSpline
210
0.0
220
0.0
230
1.0
 70
     8
 71
     3
 72
    42
 73
    38
 74
     0
 42
0.00000001
 43
0.00000001
 40
0.0
 40
0.0
 40
0.0
 40
0.0
 40
0.0070203070340538
 40
0.0333484479647457
 40
0.060124858568073
 40
0.0855695635452361
 40
0.1112776732013126
 40
0.1371623939887663
 40
0.1633155214228946
 40
0.1892931057080117
 40
0.2154886206569103
 40
0.2418597339115249
 40
0.2686369056240449
 40
0.3087444046745578
 40
0.3494946202371029
 40
0.3771180704208739
 40
0.4036799230155927
 40
0.4304376426073659
 40
0.4575043185675628
 40
0.4849977750050067
 40
0.510644300527512
 40
0.5495289823725032
 40
0.5890589018959195
 40
0.6145082030015405
 40
0.6402159678392733
 40
0.6660965667012422
 40
0.6922397208198721
 40
0.718483649932134
 40
0.7449036566128024
 40
0.7715948622997322
 40
0.7986575016320882
 40
0.8253773415135511
 40
0.8522864362610206
 40
0.8798019284134062
 40
0.9075317143739843
 40
0.9532407528532032
 40
1.0
 40
1.0
 40
1.0
 40
1.0
 10
91.93765654789225
 20
-751.6745465206476
 30
0.0
 10
91.94064470504364
 20
-751.663672999397
 30
0.0
 10
91.95483929835548
 20
-751.612020691904
 30
0.0
 10
91.8757614037854
 20
-751.8995236362811
 30
0.0
 10
91.69982206922482
 20
-752.5443525925656
 30
0.0
 10
91.42218393102445
 20
-753.5767166449078
 30
0.0
 10
91.06483814640552
 20
-754.9334855889176
 30
0.0
 10
90.62660477428359
 20
-756.6439319681085
 30
0.0
 10
90.12055789465732
 20
-758.6900160077206
 30
0.0
 10
89.5589663010493
 20
-761.0615777774519
 30
0.0
 10
88.95669954627243
 20
-763.7417148841919
 30
0.0
 10
88.32436332569031
 20
-766.7387134864812
 30
0.0
 10
87.57260168403107
 20
-770.5818710296955
 30
0.0
 10
86.72165324400706
 20
-775.4511632689221
 30
0.0
 10
85.9390702476229
 20
-780.8142492874316
 30
0.0
 10
85.34827264585533
 20
-785.7820551310263
 30
0.0
 10
84.92337392034733
 20
-790.1752459354694
 30
0.0
 10
84.59129428104863
 20
-794.6616771971617
 30
0.0
 10
84.35774009772378
 20
-799.2930510785958
 30
0.0
 10
84.2373821397999
 20
-803.9191099403262
 30
0.0
 10
84.22666733468525
 20
-809.2486591100528
 30
0.0
 10
84.39036931832904
 20
-815.2566886323457
 30
0.0
 10
84.75639027876102
 20
-821.1285786252743
 30
0.0
 10
85.2038003029958
 20
-826.0941620734291
 30
0.0
 10
85.65867709000439
 20
-830.1803062079877
 30
0.0
 10
86.18098098095288
 20
-834.1419705466849
 30
0.0
 10
86.75669406604234
 20
-837.9426648058633
 30
0.0
 10
87.37100850175604
 20
-841.5549661061332
 30
0.0
 10
88.00793086791631
 20
-844.9528522369714
 30
0.0
 10
88.65273356973334
 20
-848.1202528079427
 30
0.0
 10
89.28357744092415
 20
-851.0089387068707
 30
0.0
 10
89.88228218322234
 20
-853.5942112172216
 30
0.0
 10
90.43376695155548
 20
-855.8626506626397
 30
0.0
 10
90.92540811513688
 20
-857.8047862733581
 30
0.0
 10
91.42421432808443
 20
-859.7130767469423
 30
0.0
 10
91.85294957539726
 20
-861.2947449783359
 30
0.0
 10
91.91591729620811
 20
-861.5225774930976
 30
0.0
 10
91.94775873459675
 20
-861.6377875545116
 30
0.0
  0
LINE
  5
9A
330
1F
100
AcDbEntity
  8
0
  6
Continuous
 62
     7
370
    25
100
AcDbLine
 10
91.9477587346
 20
-1114.1377875545
 30
0.0
 11
-308.0522412654
 21
-1114.1377875545
 31
0.0
  0
LINE
  5
9B
330
1F
100
AcDbEntity
  8
0
  6
Continuous
 62
     7
370
    25
100
AcDbLine
 10
91.9477587346
 20
-499.1377875545
 30
0.0
 11
-308.0522412654
 21
-499.1377875545
 31
0.0
  0
LINE
  5
9C
330
1F
100
AcDbEntity
  8
0
  6
Continuous
 62
     7
370
    25
100
AcDbLine
 10
218.9477587346
 20
-751.6377875545
 30
0.0
 11
218.9477587346
 21
-861.6377875545
 31
0.0
  0
LINE
  5
9D
330
1F
100
AcDbEntity
  8
0
  6
Continuous
 62
     7
370
    25
100
AcDbLine
 10
91.9477587346
 20
1023.8970276467
 30
0.0
 11
91.9477587346
 21
1276.3970276467
 31
0.0
  0
LINE
  5
9E
330
1F
100
AcDbEntity
  8
0
  6
Continuous
 62
     7
370
    25
100
AcDbLine
 10
91.9477587346
 20
661.3970276467
 30
0.0
 11
91.9477587346
 21
913.9337398975
 31
0.0
  0
LINE
  5
9F
330
1F
100
AcDbEntity
  8
0
  6
Continuous
 62
     7
370
    25
100
AcDbLine
 10
-308.0522412654
 20
1276.3970276467
 30
0.0
 11
-308.0522412654
 21
661.3970276467
 31
0.0
  0
LINE
  5
A0
330
1F
100
AcDbEntity
  8
0
  6
Continuous
 62
     7
370
    25
100
AcDbLine
 10
91.9376727546
 20
913.8970276467
 30
0.0
 11
218.9477587346
 21
913.8970276467
 31
0.0
  0
LINE
  5
A1
330
1F
100
AcDbEntity
  8
0
  6
Continuous
 62
     7
370
    25
100
AcDbLine
 10
218.9477587346
 20
1023.8970276467
 30
0.0
 11
91.9477587346
 21
1023.8970276467
 31
0.0
  0
SPLINE
  5
A2
330
1F
100
AcDbEntity
  8
0
  6
Continuous
 62
     7
370
    25
100
AcDbSpline
210
0.0
220
0.0
230
1.0
 70
     8
 71
     3
 72
    45
 73
    41
 74
     0
 42
0.00000001
 43
0.00000001
 40
0.0
 40
0.0
 40
0.0
 40
0.0
 40
0.0258158759101874
 40
0.0518179439389113
 40
0.0780332360384317
 40
0.1046857830927489
 40
0.1304934100155875
 40
0.1564774280745216
 40
0.1826611527372106
 40
0.2092535391749188
 40
0.235610284537082
 40
0.2621449633884436
 40
0.2889544360186731
 40
0.3161408382635298
 40
0.3428527399657108
 40
0.3697552918444321
 40
0.397270108984618
 40
0.4250018474236287
 40
0.4511624980645891
 40
0.4775158729824562
 40
0.5041707900560808
 40
0.5312399147651788
 40
0.5566907926994263
 40
0.5823190694768302
 40
0.6082177053397559
 40
0.6342974022782865
 40
0.6600457724095706
 40
0.6859654021109948
 40
0.7120791621388064
 40
0.7385907106003884
 40
0.7651981866070899
 40
0.7919885337638741
 40
0.8190637017085467
 40
0.846531217548426
 40
0.8732402414461885
 40
0.900144288004764
 40
0.9273560027885732
 40
0.9549931740962636
 40
0.9809121495808776
 40
1.0
 40
1.0
 40
1.0
 40
1.0
 10
91.94775873459677
 20
1023.897027646745
 30
0.0
 10
91.93806445239883
 20
1023.861829583164
 30
0.0
 10
91.91860596982744
 20
1023.791179596632
 30
0.0
 10
91.7616754820461
 20
1023.218006474688
 30
0.0
 10
91.51232891351317
 20
1022.295459205775
 30
0.0
 10
91.16943667771083
 20
1021.00218490543
 30
0.0
 10
90.74636448815191
 20
1019.363630156173
 30
0.0
 10
90.25645829431437
 20
1017.402253355992
 30
0.0
 10
89.70418498943515
 20
1015.097956263474
 30
0.0
 10
89.10551474712878
 20
1012.470443113081
 30
0.0
 10
88.47618654488907
 20
1009.534786330488
 30
0.0
 10
87.8337800571571
 20
1006.313201879885
 30
0.0
 10
87.19065620077642
 20
1002.795720496848
 30
0.0
 10
86.57019528901724
 20
999.026984209542
 30
0.0
 10
85.99101603482161
 20
995.035323429109
 30
0.0
 10
85.46818554560762
 20
990.8350226718293
 30
0.0
 10
85.01514195705566
 20
986.4131815986159
 30
0.0
 10
84.65752847182
 20
981.8937019593156
 30
0.0
 10
84.40433553338532
 20
977.3403387940517
 30
0.0
 10
84.25761746509065
 20
972.7852471116123
 30
0.0
 10
84.21915615067705
 20
968.1481335434839
 30
0.0
 10
84.29255570591239
 20
963.5686733070032
 30
0.0
 10
84.47015200341083
 20
959.0888040390278
 30
0.0
 10
84.74068753442056
 20
954.7445033209555
 30
0.0
 10
85.10269077741054
 20
950.464289311754
 30
0.0
 10
85.54485609453442
 20
946.3068134162106
 30
0.0
 10
86.05387794062098
 20
942.3043684554763
 30
0.0
 10
86.61573070149501
 20
938.4805542416207
 30
0.0
 10
87.22121438106979
 20
934.826247989048
 30
0.0
 10
87.8543965811313
 20
931.3736712019919
 30
0.0
 10
88.49840736272351
 20
928.151429990801
 30
0.0
 10
89.13486225416682
 20
925.1903262049996
 30
0.0
 10
89.74816465524215
 20
922.5071479831167
 30
0.0
 10
90.31333755012872
 20
920.1592058983128
 30
0.0
 10
90.81423295543976
 20
918.1635977630211
 30
0.0
 10
91.23718383579042
 20
916.5336285892205
 30
0.0
 10
91.57609879011584
 20
915.2610102763593
 30
0.0
 10
91.80724413420559
 20
914.408994521377
 30
0.0
 10
91.93338167378799
 20
913.9492565037993
 30
0.0
 10
91.93639246267672
 20
913.9383608531957
 30
0.0
 10
91.93766936871921
 20
913.9337398974902
 30
0.0
  0
LINE
  5
A3
330
1F
100
AcDbEntity
  8
0
  6
Continuous
 62
     7
370
    25
100
AcDbLine
 10
-308.0522412654
 20
1276.3970276467
 30
0.0
 11
91.9477587346
 21
1276.3970276467
 31
0.0
  0
LINE
  5
A4
330
1F
100
AcDbEntity
  8
0
  6
Continuous
 62
     7
370
    25
100
AcDbLine
 10
-308.0522412654
 20
661.3970276467
 30
0.0
 11
91.9477587346
 21
661.3970276467
 31
0.0
  0
LINE
  5
A5
330
1F
100
AcDbEntity
  8
0
  6
Continuous
 62
     7
370
    25
100
AcDbLine
 10
218.9477587346
 20
1023.8970276467
 30
0.0
 11
218.9477587346
 21
913.8970276467
 31
0.0
  0
LINE
  5
A6
330
1F
100
AcDbEntity
  8
0
  6
Continuous
 62
     7
370
    25
100
AcDbLine
 10
1289.7413965395
 20
-97.5172761836
 30
0.0
 11
1904.7413965395
 21
-97.5172761836
 31
0.0
  0
LINE
  5
A7
330
1F
100
AcDbEntity
  8
0
  6
Continuous
 62
     7
370
    25
100
AcDbLine
 10
1904.7413965395
 20
302.4827238164
 30
0.0
 11
1289.7413965395
 21
302.4827238164
 31
0.0
  0
LINE
  5
A8
330
1F
100
AcDbEntity
  8
0
  6
Continuous
 62
     7
370
    25
100
AcDbLine
 10
1904.7413965395
 20
302.4827238164
 30
0.0
 11
1904.7413965395
 21
-97.5172761836
 31
0.0
  0
LINE
  5
A9
330
1F
100
AcDbEntity
  8
0
  6
Continuous
 62
     7
370
    25
100
AcDbLine
 10
1289.7413965395
 20
302.4827238164
 30
0.0
 11
1289.7413965395
 21
-97.5172761836
 31
0.0
  0
LINE
  5
AA
330
1F
100
AcDbEntity
  8
0
  6
Continuous
 62
     7
370
    25
100
AcDbLine
 10
-831.2169892178
 20
302.4827238164
 30
0.0
 11
-1446.2169892178
 21
302.4827238164
 31
0.0
  0
LINE
  5
AB
330
1F
100
AcDbEntity
  8
0
  6
Continuous
 62
     7
370
    25
100
AcDbLine
 10
-1446.2169892178
 20
-97.5172761836
 30
0.0
 11
-831.2169892178
 21
-97.5172761836
 31
0.0
  0
CIRCLE
  5
AC
330
1F
100
AcDbEntity
  8
0
  6
Continuous
 62
     7
370
    25
100
AcDbCircle
 10
-1138.7169892178
 20
102.4827238164
 30
0.0
 40
45.0
  0
CIRCLE
  5
AD
330
1F
100
AcDbEntity
  8
0
  6
Continuous
 62
     7
370
    25
100
AcDbCircle
 10
-1138.7169892178
 20
102.4827238164
 30
0.0
 40
55.0
  0
LINE
  5
AE
330
1F
100
AcDbEntity
  8
0
  6
Continuous
 62
     7
370
    25
100
AcDbLine
 10
-1446.2169892178
 20
102.4827238164
 30
0.0
 11
-1446.2169892178
 21
302.4827238164
 31
0.0
  0
LINE
  5
AF
330
1F
100
AcDbEntity
  8
0
  6
Continuous
 62
     7
370
    25
100
AcDbLine
 10
-1446.2169892178
 20
-97.5172761836
 30
0.0
 11
-1446.2169892178
 21
102.4827238164
 31
0.0
  0
LINE
  5
B0
330
1F
100
AcDbEntity
  8
0
  6
Continuous
 62
     7
370
    25
100
AcDbLine
 10
-831.2169892178
 20
102.4827238164
 30
0.0
 11
-831.2169892178
 21
302.4827238164
 31
0.0
  0
LINE
  5
B1
330
1F
100
AcDbEntity
  8
0
  6
Continuous
 62
     7
370
    25
100
AcDbLine
 10
-831.2169892178
 20
-97.5172761836
 30
0.0
 11
-831.2169892178
 21
102.4827238164
 31
0.0
  0
INSERT
  5
BD
330
1F
100
AcDbEntity
  8
FORMAT
100
AcDbBlockReference
  2
SW_CENTERMARKSYMBOL_1
 10
-1138.7169892178
 20
102.4827238164
 30
0.0
  0
LINE
  5
BE
330
1F
100
AcDbEntity
  8
0
  6
Continuous
 62
     7
370
    25
100
AcDbLine
 10
1691.5664566467
 20
-839.5088127316
 30
0.0
 11
1629.1599730303
 21
-803.4823165854
 31
0.0
  0
LINE
  5
BF
330
1F
100
AcDbEntity
  8
0
  6
Continuous
 62
     7
370
    25
100
AcDbLine
 10
1519.1510328937
 20
-739.975507225
 30
0.0
 11
1256.6957862169
 21
-588.4633183461
 31
0.0
  0
LINE
  5
C0
330
1F
100
AcDbEntity
  8
0
  6
Continuous
 62
     7
370
    25
100
AcDbLine
 10
1056.7120396897
 20
-934.8828632984
 30
0.0
 11
1491.5827101194
 21
-1185.9283576839
 31
0.0
  0
LINE
  5
C1
330
1F
100
AcDbEntity
  8
0
  6
Continuous
 62
     7
370
    25
100
AcDbLine
 10
1540.3581414453
 20
-854.7465227701
 30
0.0
 11
1632.8609307637
 21
-801.3457991629
 31
0.0
  0
LINE
  5
C2
330
1F
100
AcDbEntity
  8
0
  6
Continuous
 62
     7
370
    25
100
AcDbLine
 10
1577.8654004687
 20
-706.0804243011
 30
0.0
 11
1485.3625433717
 21
-759.481187036
 31
0.0
  0
SPLINE
  5
C3
330
1F
100
AcDbEntity
  8
0
  6
Continuous
 62
     7
370
    25
100
AcDbSpline
210
0.0
220
0.0
230
1.0
 70
     8
 71
     3
 72
    36
 73
    32
 74
     0
 42
0.00000001
 43
0.00000001
 40
0.0
 40
0.0
 40
0.0
 40
0.0
 40
0.0343895772380949
 40
0.0692168244905028
 40
0.1040445140901839
 40
0.1395813977384477
 40
0.1739619065412796
 40
0.2087550298178156
 40
0.2435488126015939
 40
0.27900548174622
 40
0.3141479614264271
 40
0.3495276867886282
 40
0.3852738054462615
 40
0.421522499104749
 40
0.4571385226269927
 40
0.493008747487946
 40
0.5296953295741282
 40
0.5666711413141013
 40
0.6015521602312071
 40
0.6366901459661807
 40
0.6722301896539034
 40
0.7083225125860092
 40
0.7421972407413389
 40
0.7765475861597312
 40
0.8108985975884612
 40
0.8457328672874351
 40
0.8800351992558865
 40
0.9147384256344003
 40
0.9494421542060174
 40
0.9847910389146531
 40
1.0
 40
1.0
 40
1.0
 40
1.0
 10
1476.66973144024
 20
-783.1038037576221
 30
0.0
 10
1476.687720080259
 20
-784.3409944755268
 30
0.0
 10
1476.723926298508
 20
-786.8311214168846
 30
0.0
 10
1477.018823071318
 20
-790.7912176678508
 30
0.0
 10
1477.495060151995
 20
-794.9178551392115
 30
0.0
 10
1478.166177822631
 20
-799.1376714308625
 30
0.0
 10
1479.02644928099
 20
-803.4272276126137
 30
0.0
 10
1480.067442938711
 20
-807.726145608496
 30
0.0
 10
1481.306716746242
 20
-812.0766934895755
 30
0.0
 10
1482.739791816231
 20
-816.4166341100009
 30
0.0
 10
1484.370593408297
 20
-820.7219858980005
 30
0.0
 10
1486.194352751756
 20
-824.9480568168889
 30
0.0
 10
1488.226829058377
 20
-829.0926358373794
 30
0.0
 10
1490.452996303704
 20
-833.0861076333928
 30
0.0
 10
1492.865985030218
 20
-836.8910148189266
 30
0.0
 10
1495.466349225981
 20
-840.4869676633164
 30
0.0
 10
1498.272712815436
 20
-843.8657780109572
 30
0.0
 10
1501.215596662897
 20
-846.9190717819397
 30
0.0
 10
1504.256275957876
 20
-849.6170759836369
 30
0.0
 10
1507.373467699578
 20
-851.956918505854
 30
0.0
 10
1510.625202604806
 20
-853.975049727217
 30
0.0
 10
1513.913415998903
 20
-855.6041938828906
 30
0.0
 10
1517.210427567698
 20
-856.8513596080744
 30
0.0
 10
1520.471837036107
 20
-857.7219887308071
 30
0.0
 10
1523.756075396684
 20
-858.2392305187708
 30
0.0
 10
1527.004102612427
 20
-858.3914658079509
 30
0.0
 10
1530.199028646384
 20
-858.1828495865755
 30
0.0
 10
1533.302270186995
 20
-857.6266013212734
 30
0.0
 10
1536.306292729188
 20
-856.6987878446805
 30
0.0
 10
1538.665123922539
 20
-855.7252322632628
 30
0.0
 10
1539.948443145286
 20
-854.941622525363
 30
0.0
 10
1540.334495039157
 20
-854.7058947204564
 30
0.0
  0
SPLINE
  5
C4
330
1F
100
AcDbEntity
  8
0
  6
Continuous
 62
     7
370
    25
100
AcDbSpline
210
0.0
220
0.0
230
1.0
 70
     8
 71
     3
 72
    15
 73
    11
 74
     0
 42
0.00000001
 43
0.00000001
 40
0.0
 40
0.0
 40
0.0
 40
0.0
 40
0.0862898809630657
 40
0.1945510508071083
 40
0.301440888420033
 40
0.4090878197125845
 40
0.5191605784213154
 40
0.6300905963973463
 40
0.8129446749457812
 40
1.0
 40
1.0
 40
1.0
 40
1.0
 10
1485.377762774935
 20
-759.5066693745973
 30
0.0
 10
1484.888171083326
 20
-759.8033763844119
 30
0.0
 10
1483.784326959243
 20
-760.472338490942
 30
0.0
 10
1482.305131323262
 20
-761.9096892363444
 30
0.0
 10
1480.895939100672
 20
-763.7437177591752
 30
0.0
 10
1479.683076628394
 20
-765.9253851454117
 30
0.0
 10
1478.657091675183
 20
-768.4571804135016
 30
0.0
 10
1477.660538301956
 20
-771.9666004624364
 30
0.0
 10
1476.845248968526
 20
-776.6992425241926
 30
0.0
 10
1476.72867859904
 20
-780.9528465754003
 30
0.0
 10
1476.66973144024
 20
-783.1038037576221
 30
0.0
  0
LWPOLYLINE
  5
C5
330
1F
100
AcDbEntity
  8
0
  6
Continuous
 62
     7
370
    25
100
AcDbPolyline
 90
      151
 70
   128
 43
0.0
 10
1298.1252691906
 20
-680.03227964
 10
1298.0012186336
 20
-673.2652564434
 10
1297.6292845892
 20
-666.6533306295
 10
1297.0101195562
 20
-660.2081017629
 10
1296.1448097605
 20
-653.9408769652
 10
1295.0348732494
 20
-647.8626510782
 10
1293.6822572288
 20
-641.9840873756
 10
1292.0893346467
 20
-636.3154988556
 10
1290.2589000308
 20
-630.8668301487
 10
1288.1941645852
 20
-625.6476400713
 10
1285.8987505576
 20
-620.6670848563
 10
1283.3766848841
 20
-615.9339020899
 10
1280.6323921249
 20
-611.4563953831
 10
1277.6706867021
 20
-607.242419804
 10
1274.4967644534
 20
-603.2993680978
 10
1271.1161935169
 20
-599.634157717
 10
1267.5349045627
 20
-596.2532186861
 10
1263.7591803885
 20
-593.1624823209
 10
1259.7956448977
 20
-590.3673708234
 10
1255.6512514783
 20
-587.8727877688
 10
1251.3332708045
 20
-585.6831095035
 10
1246.8492780818
 20
-583.8021774672
 10
1242.207139757
 20
-582.2332914539
 10
1237.4149997183
 20
-580.9792038227
 10
1232.4812650075
 20
-580.0421146695
 10
1227.414591072
 20
-579.4236679672
 10
1222.2238665793
 20
-579.1249486813
 10
1216.9181978242
 20
-579.1464808669
 10
1211.5068927525
 20
-579.4882267494
 10
1205.999444632
 20
-580.1495867903
 10
1200.4055153982
 20
-581.1294007394
 10
1194.7349187038
 20
-582.4259496701
 10
1188.9976027023
 20
-584.0369589949
 10
1183.2036325956
 20
-585.9596024561
 10
1177.3631729759
 20
-588.1905070837
 10
1171.486469994
 20
-590.725759113
 10
1165.583833384
 20
-593.5609108504
 10
1159.6656183761
 20
-596.6909884764
 10
1153.7422075305
 20
-600.1105007712
 10
1147.8239925226
 20
-603.8134487483
 10
1141.9213559126
 20
-607.7933361787
 10
1136.0446529308
 20
-612.0431809873
 10
1130.2041933111
 20
-616.5555275025
 10
1124.4102232043
 20
-621.3224595349
 10
1118.6729072028
 20
-626.3356142661
 10
1113.0023105084
 20
-631.5861969192
 10
1107.4083812747
 20
-637.064996188
 10
1101.9009331542
 20
-642.7624003969
 10
1096.4896280824
 20
-648.6684143629
 10
1091.1839593273
 20
-654.7726769307
 10
1085.9932348347
 20
-661.0644791494
 10
1080.9265608991
 20
-667.5327830601
 10
1075.9928261884
 20
-674.1662410597
 10
1071.2006861496
 20
-680.9532158088
 10
1066.5585478249
 20
-687.8818006474
 10
1062.0745551022
 20
-694.9398404835
 10
1057.7565744284
 20
-702.1149531168
 10
1053.6121810089
 20
-709.3945509616
 10
1049.6486455181
 20
-716.7658631297
 10
1045.872921344
 20
-724.2159578347
 10
1042.2916323898
 20
-731.731765079
 10
1038.9110614532
 20
-739.3000995828
 10
1035.7371392045
 20
-746.9076839156
 10
1032.7754337817
 20
-754.5411717895
 10
1030.0311410226
 20
-762.1871714728
 10
1027.5090753491
 20
-769.8322692839
 10
1025.2136613215
 20
-777.4630531236
 10
1023.1489258759
 20
-785.0661360038
 10
1021.3184912599
 20
-792.6281795338
 10
1019.7255686779
 20
-800.1359173196
 10
1018.3729526573
 20
-807.576178238
 10
1017.2630161462
 20
-814.9359095431
 10
1016.3977063505
 20
-822.2021997653
 10
1015.7785413175
 20
-829.3623013625
 10
1015.4066072731
 20
-836.4036530834
 10
1015.282556716
 20
-843.3139020045
 10
1015.4066072731
 20
-850.0809252011
 10
1015.7785413175
 20
-856.692851015
 10
1016.3977063505
 20
-863.1380798816
 10
1017.2630161462
 20
-869.4053046794
 10
1018.3729526573
 20
-875.4835305664
 10
1019.7255686779
 20
-881.362094269
 10
1021.3184912599
 20
-887.030682789
 10
1023.1489258759
 20
-892.4793514958
 10
1025.2136613215
 20
-897.6985415732
 10
1027.5090753491
 20
-902.6790967883
 10
1030.0311410226
 20
-907.4122795546
 10
1032.7754337817
 20
-911.8897862615
 10
1035.7371392045
 20
-916.1037618406
 10
1038.9110614532
 20
-920.0468135468
 10
1042.2916323898
 20
-923.7120239276
 10
1045.872921344
 20
-927.0929629585
 10
1049.6486455181
 20
-930.1836993236
 10
1053.6121810089
 20
-932.9788108212
 10
1057.7565744284
 20
-935.4733938758
 10
1062.0745551022
 20
-937.6630721411
 10
1066.5585478249
 20
-939.5440041774
 10
1071.2006861496
 20
-941.1128901907
 10
1075.9928261884
 20
-942.3669778218
 10
1080.9265608991
 20
-943.304066975
 10
1085.9932348347
 20
-943.9225136774
 10
1091.1839593273
 20
-944.2212329633
 10
1096.4896280824
 20
-944.1997007776
 10
1101.9009331542
 20
-943.8579548951
 10
1107.4083812747
 20
-943.1965948542
 10
1113.0023105084
 20
-942.2167809051
 10
1118.6729072028
 20
-940.9202319745
 10
1124.4102232043
 20
-939.3092226497
 10
1130.2041933111
 20
-937.3865791885
 10
1136.0446529308
 20
-935.1556745608
 10
1141.9213559126
 20
-932.6204225315
 10
1147.8239925226
 20
-929.7852707941
 10
1153.7422075305
 20
-926.6551931681
 10
1159.6656183761
 20
-923.2356808733
 10
1165.583833384
 20
-919.5327328962
 10
1171.486469994
 20
-915.5528454659
 10
1177.3631729759
 20
-911.3030006572
 10
1183.2036325956
 20
-906.7906541421
 10
1188.9976027023
 20
-902.0237221096
 10
1194.7349187038
 20
-897.0105673784
 10
1200.4055153982
 20
-891.7599847254
 10
1205.999444632
 20
-886.2811854566
 10
1211.5068927525
 20
-880.5837812477
 10
1216.9181978242
 20
-874.6777672816
 10
1222.2238665793
 20
-868.5735047139
 10
1227.414591072
 20
-862.2817024951
 10
1232.4812650075
 20
-855.8133985844
 10
1237.4149997183
 20
-849.1799405849
 10
1242.207139757
 20
-842.3929658358
 10
1246.8492780818
 20
-835.4643809971
 10
1251.3332708045
 20
-828.4063411611
 10
1255.6512514783
 20
-821.2312285278
 10
1259.7956448977
 20
-813.951630683
 10
1263.7591803885
 20
-806.5803185149
 10
1267.5349045627
 20
-799.1302238099
 10
1271.1161935169
 20
-791.6144165655
 10
1274.4967644534
 20
-784.0460820617
 10
1277.6706867022
 20
-776.4384977289
 10
1280.6323921249
 20
-768.805009855
 10
1283.3766848841
 20
-761.1590101718
 10
1285.8987505576
 20
-753.5139123606
 10
1288.1941645852
 20
-745.883128521
 10
1290.2589000308
 20
-738.2800456407
 10
1292.0893346467
 20
-730.7180021107
 10
1293.6822572288
 20
-723.2102643249
 10
1295.0348732494
 20
-715.7700034065
 10
1296.1448097605
 20
-708.4102721015
 10
1297.0101195562
 20
-701.1439818793
 10
1297.6292845892
 20
-693.9838802821
 10
1298.0012186336
 20
-686.9425285611
 10
1298.1252691906
 20
-680.03227964
  0
LWPOLYLINE
  5
C6
330
1F
100
AcDbEntity
  8
0
  6
Continuous
 62
     7
370
    25
100
AcDbPolyline
 90
       20
 70
   128
 43
0.0
 10
1732.9959396204
 20
-931.0777740255
 10
1732.8718890633
 20
-924.3107508289
 10
1732.4999550189
 20
-917.698825015
 10
1731.8807899859
 20
-911.2535961484
 10
1731.0154801902
 20
-904.9863713507
 10
1729.9055436791
 20
-898.9081454637
 10
1728.5529276585
 20
-893.0295817611
 10
1726.9600050765
 20
-887.3609932411
 10
1725.1295704605
 20
-881.9123245342
 10
1723.0648350149
 20
-876.6931344568
 10
1720.7694209873
 20
-871.7125792418
 10
1718.2473553138
 20
-866.9793964754
 10
1715.5030625547
 20
-862.5018897685
 10
1712.5413571319
 20
-858.2879141895
 10
1709.3674348831
 20
-854.3448624833
 10
1705.9868639466
 20
-850.6796521025
 10
1702.4055749924
 20
-847.2987130715
 10
1698.6298508183
 20
-844.2079767064
 10
1694.6663153274
 20
-841.4128652088
 10
1691.5664566467
 20
-839.5088127316
  0
LWPOLYLINE
  5
C7
330
1F
100
AcDbEntity
  8
0
  6
Continuous
 62
     7
370
    25
100
AcDbPolyline
 90
       58
 70
   128
 43
0.0
 10
1491.5827101194
 20
-1185.9283576839
 10
1492.6272448581
 20
-1186.5188882613
 10
1496.9452255319
 20
-1188.7085665266
 10
1501.4292182546
 20
-1190.5894985629
 10
1506.0713565793
 20
-1192.1583845762
 10
1510.8634966181
 20
-1193.4124722073
 10
1515.7972313288
 20
-1194.3495613605
 10
1520.8639052644
 20
-1194.9680080629
 10
1526.054629757
 20
-1195.2667273488
 10
1531.3602985122
 20
-1195.2451951631
 10
1536.7716035839
 20
-1194.9034492806
 10
1542.2790517044
 20
-1194.2420892397
 10
1547.8729809382
 20
-1193.2622752906
 10
1553.5435776326
 20
-1191.96572636
 10
1559.280893634
 20
-1190.3547170351
 10
1565.0748637408
 20
-1188.4320735739
 10
1570.9153233605
 20
-1186.2011689463
 10
1576.7920263423
 20
-1183.665916917
 10
1582.6946629524
 20
-1180.8307651796
 10
1588.6128779603
 20
-1177.7006875536
 10
1594.5362888059
 20
-1174.2811752588
 10
1600.4545038137
 20
-1170.5782272817
 10
1606.3571404238
 20
-1166.5983398514
 10
1612.2338434056
 20
-1162.3484950427
 10
1618.0743030253
 20
-1157.8361485276
 10
1623.8682731321
 20
-1153.0692164951
 10
1629.6055891336
 20
-1148.0560617639
 10
1635.2761858279
 20
-1142.8054791109
 10
1640.8701150617
 20
-1137.3266798421
 10
1646.3775631822
 20
-1131.6292756332
 10
1651.7888682539
 20
-1125.7232616671
 10
1657.0945370091
 20
-1119.6189990993
 10
1662.2852615017
 20
-1113.3271968806
 10
1667.3519354373
 20
-1106.8588929699
 10
1672.285670148
 20
-1100.2254349703
 10
1677.0778101868
 20
-1093.4384602213
 10
1681.7199485115
 20
-1086.5098753826
 10
1686.2039412342
 20
-1079.4518355465
 10
1690.521921908
 20
-1072.2767229133
 10
1694.6663153274
 20
-1064.9971250685
 10
1698.6298508183
 20
-1057.6258129004
 10
1702.4055749924
 20
-1050.1757181953
 10
1705.9868639466
 20
-1042.659910951
 10
1709.3674348831
 20
-1035.0915764472
 10
1712.5413571319
 20
-1027.4839921144
 10
1715.5030625547
 20
-1019.8505042405
 10
1718.2473553138
 20
-1012.2045045572
 10
1720.7694209873
 20
-1004.5594067461
 10
1723.0648350149
 20
-996.9286229065
 10
1725.1295704605
 20
-989.3255400262
 10
1726.9600050765
 20
-981.7634964962
 10
1728.5529276585
 20
-974.2557587104
 10
1729.9055436791
 20
-966.815497792
 10
1731.0154801902
 20
-959.455766487
 10
1731.8807899859
 20
-952.1894762648
 10
1732.4999550189
 20
-945.0293746676
 10
1732.8718890633
 20
-937.9880229466
 10
1732.9959396204
 20
-931.0777740255
  0
LWPOLYLINE
  5
C8
330
1F
100
AcDbEntity
  8
0
  6
Continuous
 62
     7
370
    25
100
AcDbPolyline
 90
      136
 70
   128
 43
0.0
 10
1272.4572930336
 20
-694.8500868696
 10
1272.3319450107
 20
-688.7035158317
 10
1271.9561724182
 20
-682.7149806447
 10
1271.3307890957
 20
-676.8974511421
 10
1270.4571494842
 20
-671.2635267975
 10
1269.3371456927
 20
-665.8254094364
 10
1267.9732033998
 20
-660.5948768101
 10
1266.368276601
 20
-655.5832570876
 10
1264.5258412103
 20
-650.8014043212
 10
1262.4498875324
 20
-646.2596749391
 10
1260.1449116208
 20
-641.967905316
 10
1257.61590554
 20
-637.935390469
 10
1254.868346554
 20
-634.1708639275
 10
1251.9081852639
 20
-630.6824788176
 10
1248.7418327197
 20
-627.4777902047
 10
1245.376146536
 20
-624.5637387307
 10
1241.8184160397
 20
-621.9466355823
 10
1238.0763464827
 20
-619.632148822
 10
1234.1580423545
 20
-617.6252911128
 10
1230.0719898293
 20
-615.9304088617
 10
1225.8270383869
 20
-614.5511728061
 10
1221.4323816469
 20
-613.4905700643
 10
1216.8975374574
 20
-612.7508976656
 10
1212.2323272809
 20
-612.3337575758
 10
1207.4468549238
 20
-612.2400532273
 10
1202.5514846537
 20
-612.4699875629
 10
1197.5568187526
 20
-613.0230625961
 10
1192.4736745545
 20
-613.8980804895
 10
1187.3130610178
 20
-615.0931461491
 10
1182.0861548824
 20
-616.6056713289
 10
1176.804276463
 20
-618.4323802362
 10
1171.4788651322
 20
-620.5693166261
 10
1166.121454545
 20
-623.0118523705
 10
1160.7436476597
 20
-625.7546974806
 10
1155.3570916087
 20
-628.7919115648
 10
1149.9734524728
 20
-632.1169166936
 10
1144.6043900155
 20
-635.7225116465
 10
1139.2615324307
 20
-639.6008875075
 10
1133.956451158
 20
-643.7436445782
 10
1128.7006358222
 20
-648.1418105694
 10
1123.5054693491
 20
-652.7858600327
 10
1118.3822033122
 20
-657.6657349912
 10
1113.3419335651
 20
-662.7708667225
 10
1108.3955762096
 20
-668.0901986478
 10
1103.5538439543
 20
-673.6122102789
 10
1098.8272229132
 20
-679.3249421681
 10
1094.2259498949
 20
-685.2160218102
 10
1089.7599902322
 20
-691.2726904385
 10
1085.4390161992
 20
-697.4818306576
 10
1081.2723860635
 20
-703.8299948522
 10
1077.2691238182
 20
-710.3034343124
 10
1073.4378996379
 20
-716.8881290097
 10
1069.787011101
 20
-723.5698179618
 10
1066.324365219
 20
-730.3340301181
 10
1063.0574613121
 20
-737.1661157014
 10
1059.9933747664
 20
-744.0512779357
 10
1057.1387417113
 20
-750.9746050927
 10
1054.4997446462
 20
-757.9211027876
 10
1052.0820990511
 20
-764.875726453
 10
1049.8910410081
 20
-771.8234139228
 10
1047.9313158609
 20
-778.749118053
 10
1046.2071679379
 20
-785.6378393106
 10
1044.7223313594
 20
-792.4746582595
 10
1043.480021951
 20
-799.244767872
 10
1042.4829302781
 20
-805.9335055985
 10
1041.7332158194
 20
-812.5263851223
 10
1041.2325022892
 20
-819.0091277345
 10
1040.9818741218
 20
-825.3676932582
 10
1040.9818741218
 20
-831.5883104563
 10
1041.2325022892
 20
-837.6575068572
 10
1041.7332158194
 20
-843.562137933
 10
1042.4829302781
 20
-849.2894155675
 10
1043.480021951
 20
-854.8269357528
 10
1044.7223313594
 20
-860.1627054532
 10
1046.2071679379
 20
-865.2851685797
 10
1047.9313158609
 20
-870.1832310178
 10
1049.8910410081
 20
-874.8462846549
 10
1052.0820990511
 20
-879.2642303553
 10
1054.4997446462
 20
-883.4274998322
 10
1057.1387417113
 20
-887.3270763712
 10
1059.9933747664
 20
-890.9545143578
 10
1063.0574613121
 20
-894.301957569
 10
1066.324365219
 20
-897.3621561882
 10
1069.787011101
 20
-900.1284825066
 10
1073.4378996379
 20
-902.5949452775
 10
1077.2691238182
 20
-904.7562026918
 10
1081.2723860635
 20
-906.607573947
 10
1085.4390161992
 20
-908.1450493854
 10
1089.7599902322
 20
-909.3652991775
 10
1094.2259498949
 20
-910.2656805339
 10
1098.8272229132
 20
-910.8442434292
 10
1103.5538439543
 20
-911.0997348249
 10
1108.3955762096
 20
-911.0316013836
 10
1113.3419335651
 20
-910.6399906672
 10
1118.3822033122
 20
-909.9257508171
 10
1123.5054693491
 20
-908.890428718
 10
1128.7006358222
 20
-907.536266647
 10
1133.956451158
 20
-905.8661974175
 10
1139.2615324307
 20
-903.8838380276
 10
1144.6043900155
 20
-901.5934818263
 10
1149.9734524728
 20
-899.0000892152
 10
1155.3570916087
 20
-896.1092769051
 10
1160.7436476597
 20
-892.9273057518
 10
1166.121454545
 20
-889.4610671963
 10
1171.4788651322
 20
-885.7180683394
 10
1176.804276463
 20
-881.7064156831
 10
1182.0861548824
 20
-877.4347975739
 10
1187.3130610178
 20
-872.9124653854
 10
1192.4736745545
 20
-868.149213482
 10
1197.5568187526
 20
-863.1553580067
 10
1202.5514846538
 20
-857.9417145384
 10
1207.4468549238
 20
-852.519574668
 10
1212.2323272809
 20
-846.900681543
 10
1216.8975374574
 20
-841.0972044348
 10
1221.4323816469
 20
-835.1217123823
 10
1225.8270383869
 20
-828.9871469709
 10
1230.0719898293
 20
-822.7067943032
 10
1234.1580423545
 20
-816.2942562246
 10
1238.0763464827
 20
-809.7634208645
 10
1241.8184160397
 20
-803.1284325582
 10
1245.376146536
 20
-796.4036612129
 10
1248.7418327197
 20
-789.6036711858
 10
1251.9081852639
 20
-782.7431897411
 10
1254.868346554
 20
-775.837075154
 10
1257.61590554
 20
-768.9002845308
 10
1260.1449116208
 20
-761.9478414154
 10
1262.4498875324
 20
-754.9948032514
 10
1264.5258412103
 20
-748.0562287712
 10
1266.368276601
 20
-741.147145382
 10
1267.9732033999
 20
-734.2825166199
 10
1269.3371456927
 20
-727.4772097424
 10
1270.4571494842
 20
-720.7459635286
 10
1271.3307890957
 20
-714.103356359
 10
1271.9561724182
 20
-707.5637746415
 10
1272.3319450107
 20
-701.141381654
 10
1272.4572930336
 20
-694.8500868696
  0
LWPOLYLINE
  5
C9
330
1F
100
AcDbEntity
  8
0
  6
Continuous
 62
     7
370
    25
100
AcDbPolyline
 90
       72
 70
   128
 43
0.0
 10
1637.1829707696
 20
-772.082294248
 10
1637.0584542105
 20
-768.7629440622
 10
1636.6858790441
 20
-765.325808533
 10
1636.0681611762
 20
-761.7977879064
 10
1635.2101350866
 20
-758.206493727
 10
1634.118515993
 20
-754.5800327412
 10
1632.8018472947
 20
-750.9467869231
 10
1631.2704337095
 20
-747.3351913473
 10
1629.5362606252
 20
-743.773511646
 10
1627.6129002973
 20
-740.2896227921
 10
1625.5154056282
 20
-736.9107909393
 10
1623.2601923576
 20
-733.6634600281
 10
1620.864910587
 20
-730.5730448259
 10
1618.3483066441
 20
-727.6637320216
 10
1615.7300763666
 20
-724.9582909327
 10
1613.0307109566
 20
-722.4778953037
 10
1610.2713366083
 20
-720.2419575935
 10
1607.4735491672
 20
-718.2679770464
 10
1604.6592451134
 20
-716.5714027364
 10
1601.850450192
 20
-715.165512658
 10
1599.0691470315
 20
-714.061309807
 10
1596.3371031001
 20
-713.267436068
 10
1593.675700346
 20
-712.7901045794
 10
1591.105767854
 20
-712.6330511072
 10
1588.6474188304
 20
-712.7975048078
 10
1586.3198931895
 20
-713.282178608
 10
1584.1414069751
 20
-714.0832792782
 10
1582.1290097956
 20
-715.1945371194
 10
1580.2984513874
 20
-716.6072550324
 10
1578.6640583521
 20
-718.3103765841
 10
1577.2386220311
 20
-720.2905725391
 10
1576.0332983964
 20
-722.5323451792
 10
1575.0575207395
 20
-725.018149594
 10
1574.3189258437
 20
-727.7285309937
 10
1573.8232942154
 20
-730.6422769688
 10
1573.5745048442
 20
-733.7365835065
 10
1573.5745048442
 20
-736.9872334628
 10
1573.8232942154
 20
-740.3687860944
 10
1574.3189258437
 20
-743.8547761669
 10
1575.0575207395
 20
-747.4179210817
 10
1576.0332983964
 20
-751.0303343986
 10
1577.2386220311
 20
-754.6637440856
 10
1578.6640583521
 20
-758.2897137855
 10
1580.2984513874
 20
-761.8798653692
 10
1582.1290097956
 20
-765.4061010328
 10
1584.1414069751
 20
-768.8408232011
 10
1586.3198931895
 20
-772.1571505163
 10
1588.6474188304
 20
-775.3291282207
 10
1591.105767854
 20
-778.331931288
 10
1593.675700346
 20
-781.1420587128
 10
1596.3371031001
 20
-783.7375174379
 10
1599.0691470315
 20
-786.0979944798
 10
1601.850450192
 20
-788.2050159051
 10
1604.6592451134
 20
-790.0420914145
 10
1607.4735491672
 20
-791.5948434011
 10
1610.2713366083
 20
-792.8511194756
 10
1613.0307109566
 20
-793.8010875741
 10
1615.7300763666
 20
-794.4373129084
 10
1618.3483066441
 20
-794.7548161526
 10
1620.864910587
 20
-794.7511124133
 10
1623.2601923576
 20
-794.4262306772
 10
1625.5154056282
 20
-793.7827135846
 10
1627.6129002973
 20
-792.8255975291
 10
1629.5362606252
 20
-791.5623732415
 10
1631.2704337095
 20
-790.0029271647
 10
1632.8018472947
 20
-788.1594640786
 10
1634.118515993
 20
-786.0464115813
 10
1635.2101350866
 20
-783.6803071736
 10
1636.0681611762
 20
-781.0796688305
 10
1636.6858790441
 20
-778.2648500731
 10
1637.0584542105
 20
-775.2578806748
 10
1637.1829707696
 20
-772.082294248
  0
LWPOLYLINE
  5
CA
330
1F
100
AcDbEntity
  8
0
  6
Continuous
 62
     7
370
    25
100
AcDbPolyline
 90
       79
 70
   128
 43
0.0
 10
1644.2540385815
 20
-776.1643348071
 10
1644.127927464
 20
-772.4777993545
 10
1643.7504119908
 20
-768.669567702
 10
1643.1239404944
 20
-764.7643376932
 10
1642.2525758829
 20
-760.7874362434
 10
1641.1419692902
 20
-756.7646550845
 10
1639.7993234262
 20
-752.722083496
 10
1638.2333458646
 20
-748.6859391059
 10
1636.4541925707
 20
-744.6823978593
 10
1634.4734020364
 20
-740.7374242576
 10
1632.3038204485
 20
-736.8766029684
 10
1629.9595183759
 20
-733.1249728991
 10
1627.4556995174
 20
-729.5068648106
 10
1624.8086020988
 20
-726.045743522
 10
1622.0353935629
 20
-722.7640557331
 10
1619.154059231
 20
-719.6830844484
 10
1616.1832856621
 20
-716.8228109492
 10
1613.1423394626
 20
-714.2017852064
 10
1610.0509423357
 20
-711.8370055779
 10
1606.9291431778
 20
-709.743808567
 10
1603.7971880546
 20
-707.9357693596
 10
1600.6753888967
 20
-706.4246137836
 10
1597.5839917698
 20
-705.220142263
 10
1594.5430455703
 20
-704.3301662576
 10
1591.5722720014
 20
-703.7604576034
 10
1588.6909376695
 20
-703.5147110797
 10
1585.9177291336
 20
-703.5945204469
 10
1583.270631715
 20
-703.9993681106
 10
1580.7668128564
 20
-704.7266284785
 10
1578.4225107839
 20
-705.7715849879
 10
1576.2529291959
 20
-707.127460695
 10
1574.2721386617
 20
-708.7854622254
 10
1572.4929853678
 20
-710.734836803
 10
1570.9270078062
 20
-712.9629419857
 10
1569.5843619422
 20
-715.4553276563
 10
1568.4737553495
 20
-718.1958297373
 10
1567.602390738
 20
-721.1666750212
 10
1566.9759192416
 20
-724.3485964363
 10
1566.5984037683
 20
-727.7209580011
 10
1566.4722926509
 20
-731.2618886569
 10
1566.5984037683
 20
-734.9484241096
 10
1566.9759192416
 20
-738.7566557621
 10
1567.602390738
 20
-742.6618857708
 10
1568.4737553495
 20
-746.6387872206
 10
1569.5843619422
 20
-750.6615683795
 10
1570.9270078062
 20
-754.704139968
 10
1572.4929853678
 20
-758.7402843581
 10
1574.2721386617
 20
-762.7438256047
 10
1576.2529291959
 20
-766.6887992064
 10
1578.4225107839
 20
-770.5496204956
 10
1580.7668128564
 20
-774.3012505649
 10
1583.270631715
 20
-777.9193586534
 10
1585.9177291336
 20
-781.380479942
 10
1588.6909376695
 20
-784.6621677309
 10
1591.5722720014
 20
-787.7431390156
 10
1594.5430455703
 20
-790.6034125149
 10
1597.5839917698
 20
-793.2244382576
 10
1600.6753888967
 20
-795.5892178861
 10
1603.7971880546
 20
-797.682414897
 10
1606.9291431778
 20
-799.4904541044
 10
1610.0509423357
 20
-801.0016096804
 10
1613.1423394626
 20
-802.206081201
 10
1616.1832856621
 20
-803.0960572064
 10
1619.154059231
 20
-803.6657658606
 10
1622.0353935629
 20
-803.9115123844
 10
1624.8086020988
 20
-803.8317030172
 10
1627.4556995174
 20
-803.4268553534
 10
1629.9595183759
 20
-802.6995949855
 10
1632.3038204485
 20
-801.6546384761
 10
1634.4734020364
 20
-800.298762769
 10
1636.4541925707
 20
-798.6407612386
 10
1638.2333458646
 20
-796.691386661
 10
1639.7993234262
 20
-794.4632814783
 10
1641.1419692902
 20
-791.9708958077
 10
1642.2525758829
 20
-789.2303937267
 10
1643.1239404944
 20
-786.2595484428
 10
1643.7504119908
 20
-783.0776270277
 10
1644.127927464
 20
-779.7052654629
 10
1644.2540385815
 20
-776.1643348071
  0
ENDSEC
  0
SECTION
  2
OBJECTS
  0
DICTIONARY
  5
C
330
0
100
AcDbDictionary
281
     1
  3
ACAD_GROUP
350
D
  3
ACAD_LAYOUT
350
1A
  3
ACAD_MLINESTYLE
350
17
  3
ACAD_PLOTSETTINGS
350
19
  3
ACAD_PLOTSTYLENAME
350
E
  3
ACAD_SCALELIST
350
47
  3
DWGPROPS
350
CB
  0
DICTIONARY
  5
D
102
{ACAD_REACTORS
330
C
102
}
330
C
100
AcDbDictionary
281
     1
  0
DICTIONARY
  5
1A
102
{ACAD_REACTORS
330
C
102
}
330
C
100
AcDbDictionary
281
     1
  3
Layout1
350
1E
  3
Layout2
350
26
  3
Model
350
22
  0
DICTIONARY
  5
17
102
{ACAD_REACTORS
330
C
102
}
330
C
100
AcDbDictionary
281
     1
  3
Standard
350
18
  0
DICTIONARY
  5
19
102
{ACAD_REACTORS
330
C
102
}
330
C
100
AcDbDictionary
281
     1
  0
ACDBDICTIONARYWDFLT
  5
E
102
{ACAD_REACTORS
330
C
102
}
330
C
100
AcDbDictionary
281
     1
  3
Normal
350
F
100
AcDbDictionaryWithDefault
340
F
  0
DICTIONARY
  5
47
102
{ACAD_REACTORS
330
C
102
}
330
C
100
AcDbDictionary
281
     1
  3
A0
350
48
  3
A1
350
49
  3
A2
350
4A
  3
A3
350
4B
  3
A4
350
4C
  3
A5
350
4D
  3
A6
350
4E
  3
A7
350
4F
  3
A8
350
50
  3
A9
350
51
  3
B0
350
52
  3
B1
350
53
  3
B2
350
54
  3
B3
350
55
  3
B4
350
56
  3
B5
350
57
  3
B6
350
58
  3
B7
350
59
  3
B8
350
5A
  3
B9
350
5B
  3
C0
350
5C
  3
C1
350
5D
  3
C2
350
5E
  3
C3
350
5F
  3
C4
350
60
  3
C5
350
61
  3
C6
350
62
  3
C7
350
63
  3
C8
350
64
  3
C9
350
65
  3
D0
350
66
  3
D1
350
67
  3
D2
350
68
  0
XRECORD
  5
CB
102
{ACAD_REACTORS
330
C
102
}
330
C
100
AcDbXrecord
280
     1
  1
DWGPROPS COOKIE
  2

  3

  4

  6

  7

  8
b.kav
  9

300
=
301
=
302
=
303
=
304
=
305
=
306
=
307
=
308
=
309
=
 40
0.0
 41
2459921.394989653
 42
2459921.394989838
  1

 90
        0
  0
LAYOUT
  5
1E
102
{ACAD_REACTORS
330
1A
102
}
330
1A
100
AcDbPlotSettings
  1

  2
none_device
  4

  6

 40
0.0
 41
0.0
 42
0.0
 43
0.0
 44
0.0
 45
0.0
 46
0.0
 47
0.0
 48
0.0
 49
0.0
140
0.0
141
0.0
142
1.0
143
1.0
 70
   688
 72
     1
 73
     0
 74
     5
  7

 75
    16
147
1.0
148
0.0
149
0.0
100
AcDbLayout
  1
Layout1
 70
     1
 71
     1
 10
0.0
 20
0.0
 11
420.0
 21
297.0
 12
0.0
 22
0.0
 32
0.0
 14
1.0000000000E+20
 24
1.0000000000E+20
 34
1.0000000000E+20
 15
-1.0000000000E+20
 25
-1.0000000000E+20
 35
-1.0000000000E+20
146
0.0
 13
0.0
 23
0.0
 33
0.0
 16
1.0
 26
0.0
 36
0.0
 17
0.0
 27
1.0
 37
0.0
 76
     0
330
1B
  0
LAYOUT
  5
26
102
{ACAD_REACTORS
330
1A
102
}
330
1A
100
AcDbPlotSettings
  1

  2
none_device
  4

  6

 40
0.0
 41
0.0
 42
0.0
 43
0.0
 44
0.0
 45
0.0
 46
0.0
 47
0.0
 48
0.0
 49
0.0
140
0.0
141
0.0
142
1.0
143
1.0
 70
   688
 72
     1
 73
     0
 74
     5
  7

 75
    16
147
1.0
148
0.0
149
0.0
100
AcDbLayout
  1
Layout2
 70
     1
 71
     2
 10
0.0
 20
0.0
 11
0.0
 21
0.0
 12
0.0
 22
0.0
 32
0.0
 14
0.0
 24
0.0
 34
0.0
 15
0.0
 25
0.0
 35
0.0
146
0.0
 13
0.0
 23
0.0
 33
0.0
 16
1.0
 26
0.0
 36
0.0
 17
0.0
 27
1.0
 37
0.0
 76
     0
330
23
  0
LAYOUT
  5
22
102
{ACAD_REACTORS
330
1A
102
}
330
1A
100
AcDbPlotSettings
  1

  2
none_device
  4
Letter_(8.50_x_11.00_Inches)
  6

 40
6.35
 41
6.35
 42
6.35000508
 43
6.35000508
 44
215.9
 45
279.4
 46
0.0
 47
0.0
 48
0.0
 49
0.0
140
0.0
141
0.0
142
1.0
143
1.0
 70
  1712
 72
     1
 73
     0
 74
     0
  7

 75
     0
147
1.0
148
0.0
149
0.0
100
AcDbLayout
  1
Model
 70
     1
 71
     0
 10
0.0
 20
0.0
 11
279.4
 21
215.9
 12
0.0
 22
0.0
 32
0.0
 14
0.0
 24
0.0
 34
0.0
 15
279.4
 25
215.9
 35
0.0
146
0.0
 13
0.0
 23
0.0
 33
0.0
 16
1.0
 26
0.0
 36
0.0
 17
0.0
 27
1.0
 37
0.0
 76
     0
330
1F
331
29
  0
MLINESTYLE
  5
18
102
{ACAD_REACTORS
330
17
102
}
330
17
100
AcDbMlineStyle
  2
Standard
 70
     0
  3

 62
   256
 51
90.0
 52
90.0
 71
     2
 49
0.5
 62
   256
  6
BYLAYER
 49
-0.5
 62
   256
  6
BYLAYER
  0
ACDBPLACEHOLDER
  5
F
102
{ACAD_REACTORS
330
E
102
}
330
E
  0
SCALE
  5
48
102
{ACAD_REACTORS
330
47
102
}
330
47
100
AcDbScale
 70
     0
300
1:1
140
1.0
141
1.0
290
     1
  0
SCALE
  5
49
102
{ACAD_REACTORS
330
47
102
}
330
47
100
AcDbScale
 70
     0
300
1:2
140
1.0
141
2.0
290
     0
  0
SCALE
  5
4A
102
{ACAD_REACTORS
330
47
102
}
330
47
100
AcDbScale
 70
     0
300
1:4
140
1.0
141
4.0
290
     0
  0
SCALE
  5
4B
102
{ACAD_REACTORS
330
47
102
}
330
47
100
AcDbScale
 70
     0
300
1:5
140
1.0
141
5.0
290
     0
  0
SCALE
  5
4C
102
{ACAD_REACTORS
330
47
102
}
330
47
100
AcDbScale
 70
     0
300
1:8
140
1.0
141
8.0
290
     0
  0
SCALE
  5
4D
102
{ACAD_REACTORS
330
47
102
}
330
47
100
AcDbScale
 70
     0
300
1:10
140
1.0
141
10.0
290
     0
  0
SCALE
  5
4E
102
{ACAD_REACTORS
330
47
102
}
330
47
100
AcDbScale
 70
     0
300
1:16
140
1.0
141
16.0
290
     0
  0
SCALE
  5
4F
102
{ACAD_REACTORS
330
47
102
}
330
47
100
AcDbScale
 70
     0
300
1:20
140
1.0
141
20.0
290
     0
  0
SCALE
  5
50
102
{ACAD_REACTORS
330
47
102
}
330
47
100
AcDbScale
 70
     0
300
1:30
140
1.0
141
30.0
290
     0
  0
SCALE
  5
51
102
{ACAD_REACTORS
330
47
102
}
330
47
100
AcDbScale
 70
     0
300
1:40
140
1.0
141
40.0
290
     0
  0
SCALE
  5
52
102
{ACAD_REACTORS
330
47
102
}
330
47
100
AcDbScale
 70
     0
300
1:50
140
1.0
141
50.0
290
     0
  0
SCALE
  5
53
102
{ACAD_REACTORS
330
47
102
}
330
47
100
AcDbScale
 70
     0
300
1:100
140
1.0
141
100.0
290
     0
  0
SCALE
  5
54
102
{ACAD_REACTORS
330
47
102
}
330
47
100
AcDbScale
 70
     0
300
2:1
140
2.0
141
1.0
290
     0
  0
SCALE
  5
55
102
{ACAD_REACTORS
330
47
102
}
330
47
100
AcDbScale
 70
     0
300
4:1
140
4.0
141
1.0
290
     0
  0
SCALE
  5
56
102
{ACAD_REACTORS
330
47
102
}
330
47
100
AcDbScale
 70
     0
300
8:1
140
8.0
141
1.0
290
     0
  0
SCALE
  5
57
102
{ACAD_REACTORS
330
47
102
}
330
47
100
AcDbScale
 70
     0
300
10:1
140
10.0
141
1.0
290
     0
  0
SCALE
  5
58
102
{ACAD_REACTORS
330
47
102
}
330
47
100
AcDbScale
 70
     0
300
100:1
140
100.0
141
1.0
290
     0
  0
SCALE
  5
59
102
{ACAD_REACTORS
330
47
102
}
330
47
100
AcDbScale
 70
     0
300
1/128" = 1'-0"
140
0.0078125
141
12.0
290
     0
  0
SCALE
  5
5A
102
{ACAD_REACTORS
330
47
102
}
330
47
100
AcDbScale
 70
     0
300
1/64" = 1'-0"
140
0.015625
141
12.0
290
     0
  0
SCALE
  5
5B
102
{ACAD_REACTORS
330
47
102
}
330
47
100
AcDbScale
 70
     0
300
1/32" = 1'-0"
140
0.03125
141
12.0
290
     0
  0
SCALE
  5
5C
102
{ACAD_REACTORS
330
47
102
}
330
47
100
AcDbScale
 70
     0
300
1/16" = 1'-0"
140
0.0625
141
12.0
290
     0
  0
SCALE
  5
5D
102
{ACAD_REACTORS
330
47
102
}
330
47
100
AcDbScale
 70
     0
300
3/32" = 1'-0"
140
0.09375
141
12.0
290
     0
  0
SCALE
  5
5E
102
{ACAD_REACTORS
330
47
102
}
330
47
100
AcDbScale
 70
     0
300
1/8" = 1'-0"
140
0.125
141
12.0
290
     0
  0
SCALE
  5
5F
102
{ACAD_REACTORS
330
47
102
}
330
47
100
AcDbScale
 70
     0
300
3/16" = 1'-0"
140
0.1875
141
12.0
290
     0
  0
SCALE
  5
60
102
{ACAD_REACTORS
330
47
102
}
330
47
100
AcDbScale
 70
     0
300
1/4" = 1'-0"
140
0.25
141
12.0
290
     0
  0
SCALE
  5
61
102
{ACAD_REACTORS
330
47
102
}
330
47
100
AcDbScale
 70
     0
300
3/8" = 1'-0"
140
0.375
141
12.0
290
     0
  0
SCALE
  5
62
102
{ACAD_REACTORS
330
47
102
}
330
47
100
AcDbScale
 70
     0
300
1/2" = 1'-0"
140
0.5
141
12.0
290
     0
  0
SCALE
  5
63
102
{ACAD_REACTORS
330
47
102
}
330
47
100
AcDbScale
 70
     0
300
3/4" = 1'-0"
140
0.75
141
12.0
290
     0
  0
SCALE
  5
64
102
{ACAD_REACTORS
330
47
102
}
330
47
100
AcDbScale
 70
     0
300
1" = 1'-0"
140
1.0
141
12.0
290
     0
  0
SCALE
  5
65
102
{ACAD_REACTORS
330
47
102
}
330
47
100
AcDbScale
 70
     0
300
1-1/2" = 1'-0"
140
1.5
141
12.0
290
     0
  0
SCALE
  5
66
102
{ACAD_REACTORS
330
47
102
}
330
47
100
AcDbScale
 70
     0
300
3" = 1'-0"
140
3.0
141
12.0
290
     0
  0
SCALE
  5
67
102
{ACAD_REACTORS
330
47
102
}
330
47
100
AcDbScale
 70
     0
300
6" = 1'-0"
140
6.0
141
12.0
290
     0
  0
SCALE
  5
68
102
{ACAD_REACTORS
330
47
102
}
330
47
100
AcDbScale
 70
     0
300
1'-0" = 1'-0"
140
12.0
141
12.0
290
     0
  0
ENDSEC
  0
EOF
